หาโน็ตคีย์บอร์ดเพลงแบบที่เป็นตัวเลขให้หน่อยนะค้ะ:):)

miemie 2184293 0.00 644 22 พ.ค. 54 15:38 น.
ความคิดเห็น

4

ติดตามกระทู้

0

แชร์กระทู้นี้
จำนวนแชร์
0
guest
miemie
  • miemie
  • 183.89.92.33
  • miemie_plive.com

กระทู้ที่เปิดอ่านล่าสุด

บทความที่ถูกแชร์เยอะที่สุด

ขอโน๊ตคีย์บอร์ดเพลงใหม่ๆของกามิกาเซ่ตอนนี้อ้ะค้ะพวกเพลง รักทุกวินาที แล้วก็เพลงอื่นอ่ะค่ะ แล้วก็เพลง เธอคือของขวัญ , ทะเลใจ , รักแท้แค่หนึ่งคน , GEE[SNSD] , MR.TAXI[SNSD] , O.K[B1A4] , LONELY[2NE1] , DON'T CRY[PARKBOM 2NE1] ถ้าหาได้หมดเลยยก็ขอบคุณมากมากจริงจริงค้ะ:):):) ส่งอีเมล์มาเลยนะค้ะ

แก้ไขครั้งล่าสุดเมื่อ : วันที่ 11 สิงหาคม 2554 เวลา 21:36 น.

อยากเป็นคนแรกที่โหวตมั๊ยล่ะ... โหวตเลย!

  • โอ้โหเด็ด

  • น่ารักสุดๆ

  • หรูเริด

  • ตลกอ่ะ

  • เครียด

  • สู้ๆ สู้ตาย

  • ช็อค

  • โกรธ

  • ล้มโต๊ะ


0 โหวต จากทั้งหมด 0 โหวตเลือก

ความคิดเห็น

4

ติดตามกระทู้

0

แชร์กระทู้นี้
จำนวนแชร์
0
ซ่อน

ความคิดเห็นทั้งหมด

1

ความคิดเห็นที่ 1 - ความคิดเห็นล่าสุด

  1. ขอบคุณ
    ความเห็นนี้

    โน๊ตบบตัวเลขนี่คือ ????
  2. ขอบคุณ
    ความเห็นนี้

    ลองใช้guitar pro ดูอะครับ เห็นเพื่อนบอกว่ามี

    โน๊ตแบบตัวเลขแบบนี้ป่าวครับ?
    1|--------------------------------------------------------------------------------
    2|---------------------------------12-^----------------------------------14-^--
    3|---------------------------------12-^----------------------------------14-^--
    4|--14--12--14----14--12--14-----------14--12--14----14--12--14---------
    5|--------------------------------------------------------------------------------
    6|--------------------------------------------------------------------------------

    1|-------------------------------------------------------------------------------
    2|-------------------------------12-^-------------------------------------------
    3|-------------------------------12-^--------------------------------12--------
    4|--14--12--14----14--12--14-----------14-12-14---14--12--14------------
    5|--------------------------------------------------------------------------------
    6|-------------------------------------------------------------------------------

    1|--15-12---------------------------------------------------------------------12--15--12--
    2|---------1312------------------------------------------------------12-13--------------13
    3|----------------12--9---------------------------------------9-12--------------------------
    4|-----------------------109---------------------------9-10--------------------------------
    5|-----------------------------10--7-----------7-10------------------------------------------
    6|------------------------------------8----7-8------------------------------------------------

    1|----------------------------------17-14-----------------------------------
    2|--------------------------------15------15-------------15^--------------
    3|--------------12-14---------14-----------14-12-14---14-----------12--
    4|-------12-14-------------16----------------------------------------------
    5|-->14-----------------14-------------------------------------------------
    6|---------------------------------------------------------------------------

    ปล.อันนี้ของคราม


  3. ขอบคุณ
    ความเห็นนี้

    3
    guest
    miemie<3 [เจ้าของกระทู้น้าา]
    miemie<3 [เจ้าของกระทู้น้าา] 14.207.24.45
    ก็คือแบบ สมมุติว่าเสียง a = 1 ก็กดคีย์เลข1 ไรประมาณนี้อ่ะค้ะ เราก็อธิบายไม่ค่อยถูก คือเราอ่านโน็ตแบบอื่นไม่เป็นอ่าาาา
  4. ขอบคุณ
    ความเห็นนี้

    ก็นี้ไง  โด คือ 1 เร คือ2
    เช่น  1 =โด 2=เร  3=มี  4=ฟา   5=ซอล   6=ลา  7=ที  8=โด (เสียงสูง)
           แต่ในคีย์บอร์ด เขาไม่ติด หรือไม่นิยมเล่นแปดกัน ถ้าเสียงสูง ก็จะ
           >>>>  1 ํ  (ก็คือเลข1มีไอกลมๆบนเลข อะ- -")  พอจะเข้าใจไหมค๊ะ (?)
ซ่อน

แสดงความคิดเห็น

refer: